Hudobná akadémia o.z.
Karpatská 2
811 05 Bratislava

tel.: 0911 111 717

Otváracie hodiny kancelárie
Po - Pia: 14:00 - 19:00
Kancelária sa nachádza na druhom poschodí
v budove bývalého kina YMCA.

 
Pár basgitarových cvičení na rozcvičenie
Napísal Mário Polónyi   
bassguitar Keď si po dlhšom čase sadnem za basu, mávam tvrdé a neohybné prsty. Vždy si chcem zahrať niečo pekné, aby som sa potešil, ale bez predchádzajúcej rozcvičky sa mi to málokedy podarí.. 

Takéto spontánne pokusy bývajú väčšinou ploché a nepresné. A tak som sa naučil, vo svojom vlastnom záujme, používať krátke cvičenia na rozohriatie. Môj bývalý učiteľ, p. Vizvári, tomu hovoril prebudenie spiacich trpaslíkov v prstoch.


Najzákladnejšie cvičenie sa hrá iba s jedným prstom, patrí k mojim najobľúbenejším:

G||--------------------0--1--|--1--0--------------------|

D||--------------0--1--------|--------1--0--------------|

A||--------0--1--------------|--------------1--0--------|

E||--0--1--------------------|--------------------1--0--|



--------------------0--2--|--2--0--------------------|

--------------0--2--------|--------2--0--------------|

--------0--2--------------|--------------2--0--------|

--0--2--------------------|--------------------2--0--|



--------------------0--3--|--3--0--------------------|

--------------0--3--------|--------3--0--------------|

--------0--3--------------|--------------3--0--------|

--0--3--------------------|--------------------3--0--|



--------------------0--4--|--4--0--------------------||

--------------0--4--------|--------4--0--------------||

--------0--4--------------|--------------4--0--------||

--0--4--------------------|--------------------4--0--||


S dvomi prstami si to vždy najprv rozmyslím.

--------------------1--2--|--2--1--------------------|

--------------1--2--------|--------2--1--------------|

--------1--2--------------|--------------2--1--------|

--1--2--------------------|--------------------2--1--|



--------------------1--3--|--3--1--------------------|

--------------1--3--------|--------3--1--------------|

--------1--3--------------|--------------3--1--------|

--1--3--------------------|--------------------3--1--|



--------------------1--4--|--4--1--------------------|

--------------1--4--------|--------4--1--------------|

--------1--4--------------|--------------4--1--------|

--1--4--------------------|--------------------4--1--|

 
 

--------------------2--3--|--3--2--------------------|

--------------2--3--------|--------3--2--------------|

--------2--3--------------|--------------3--2--------|

--2--3--------------------|--------------------3--2--|

 
 

--------------------2--4--|--4--2--------------------|

--------------2--4--------|--------4--2--------------|

--------2--4--------------|--------------4--2--------|

--2--4--------------------|--------------------4--2--|

 

  
--------------------3--4--|--4--3--------------------||

--------------3--4--------|--------4--3--------------||

--------3--4--------------|--------------4--3--------||

--3--4--------------------|--------------------4--3--||

 

Všetky štyri.

--------------------------|--------------1--2--3--4--|

--------------------------|--1--2--3--4--------------|

--------------1--2--3--4--|--------------------------|

--1--2--3--4--------------|--------------------------|

 

  

--4--3--2--1--------------|--------------------------||

--------------4--3--2--1--|--------------------------||

--------------------------|--4--3--2--1--------------||

--------------------------|--------------4--3--2--1--||

Zatiaľ sa všetky cvičenia hrali v prvej polohe, t.j. ukazovák je na prvom pražci a ostatné prsty pekne postupne na ostatných pražcoch (druhý prst na 2. pražci atď.). Skúsme sa teraz pozrieť na zvyšok hmatníka. Stále veľmi anonymne, akoby sme ani nepoznali noty.

--------------------------|---------------------------------|

--------------------------|---------------------------------|

--------------------------|---------------------------------|

--1--2--3--4--5--6--7--8--|--9--10--11--12--13--14--15--16--|

  I.           V.             IX.            XIII.

 

---------------------------------|--------------------------||

---------------------------------|--------------------------||

---------------------------------|--------------------------||

--16--15--14--13--12--11--10--9--|--8--7--6--5--4--3--2--1--||

 

Toto pestré a nápadité cvičenie sa dá zahrať podobným ak nie aj celkom rovnakým spôsobom aj na zvyšných strunách.

To by na prvú lekciu hádam aj stačilo. Ja ešte zhrniem všeobecné pravidlá nácviku, aby sme predišli zbytočným zraneniam a nezdarom. Všetky noty sú rovnako dlhé, odporúčam začať so štvrťovými notami a postupne ich skracovať bárs až na šestnástiny. Pravá ruka hrá striedavo prostredníkom a ukazovákom, prostredník je vždy prstom prízvučným (skôr sa na ňom vytvorí pľuzgier) a ukazovák je prstom odľahčeným. Aby ste si nemysleli, že pri týchto nie príliš náročných cvičeniach sa nedá nacvičovať jedným vrzom (alebo jedným šupom) aj prednes alebo dynamika, tak sa dohodnime, že pri každom cvičení začneme pekne piánko, postupne budeme pridávať a najvyšší tón bude forte ako hrom. Pozor, nehráme fyzickou silou kdesi od pleca, ale pekne energiou v prstoch. Naspäť platí opačný postup, pokorne sa vrátime do piana (skoro som napísal pijana). Okrem toho dáme vždy na začiatok taktu hlavný prízvuk, to znamená zvýrazniť daný tón aj na úkor piana, a do stredu taktu vedľajší prízvuk. Tým si aj vo vysokých tempách uchováme orientáciu v cvičení a tieto prízvučné tóny nám poslúžia ako majáky.

Ďakujem pekne za pozornosť a držím palce pri rozohrievaní. 




Odporučte stránku ostatným užívateľom
Del.icio.us!Google!StumbleUpon!Yahoo!