Hudobná akadémia o.z.
Karpatská 2
811 05 Bratislava

tel.: 0911 111 717

Otváracie hodiny kancelárie
Po - Pia: 14:00 - 19:00
Kancelária sa nachádza na druhom poschodí
v budove bývalého kina YMCA.

 
Ako čítať taby a tabulatúry - časť 1.
Napísal Administrator   
Image Ak sa učíte hrať na gitaru, dôležite je vedieť čítať internetové tabulatúry. Tabulatúra je spôsob zápisu notácie pre gitaru, ale aj iné strunové nástroje. Základom tabulatúry pre gitaru je 6 strún zobrazených čiarami.






Tabulatúra vyzerá teda nejako takto:


e------------------------------------------------
H------------------------------------------------
G------------------------------------------------
D------------------------------------------------
A------------------------------------------------
E------------------------------------------------

Písmená vľavo znamenajú názvy strún - od najvyššej po najnižšiu strunu, teda od najtenšej e po najhrubšiu strunu E:
Niekedy sa uvádzajú len tie struny, ktoré budeme hrať. Vtedy si treba dobre všimnúť ktoré. Pri basovej gitare sa pochopiteľne zobrazujú len štyri (E A D G).

e-----------------------------------------------
H-----------------------------------------------
G-----------------------------------------------
D-----------------------------------------------
A---7-7-10-7-5-3-2------------------------------
E-----------------------------------------------

Keďže sme sa už naučili že struna E je najnižšia a struna A je v tabulatúre o riadok vyššie, teda nám z toho vyjde, že struna A je druhá najhrubšia.

Teda:

e najvyššia struna
H druhá najvyššia
G tretia najvyššia
D tretia najnižšia
A druhá najnižšia
E najnižšia

Aby hráč pri čítaní tabulatúry vedel, na ktorom pražci struny sa hrá, uvádzajú sa čísla. Takže ak chceme na strune H zahrať piaty pražec (tón E), vpíšeme do čiary H päťku. Chceme zahrať za sebou poltóny od E až po A (E F F# G G# A):

e----------------------------------------------
H----------------------------------------------
G----------------------------------------------
D----------------------------------------------
A----------------------------------------------
E-0-1-2-3-4-5----------------------------------

Takže pražec číslo 7. Je tam ešte ďaľšia sedmička, takže zahráš notu na siedmom pražci ešte raz. Akékoľvek číslo vidíš v tabulatúre, tak to symbolizuje číslo pražca. Tabulatúrou sa dajú značiť aj viaceré tóny hrané naraz. Ak chceme zahrať dve alebo viac tónov súčasne, píšeme ich ako v notách pod seba. Toto je akord G dur.

e-3--------------------------------------------
H-3--------------------------------------------
G-4--------------------------------------------
D-5--------------------------------------------
A-5--------------------------------------------
E-3--------------------------------------------

Základy sme teda zvládli. V druhej časti sa pozrieme na nejaké tie techniky hry.





Odporučte stránku ostatným užívateľom
Del.icio.us!Google!StumbleUpon!Yahoo!