Hudobná akadémia o.z.
Karpatská 2
811 05 Bratislava

tel.: 0911 111 717

Otváracie hodiny kancelárie
Po - Pia: 14:00 - 19:00
Kancelária sa nachádza na druhom poschodí
v budove bývalého kina YMCA.

 
Učíme sa hrať: Stairway to Heaven
Napísal Webmaster   
Obsah článku
Učíme sa hrať: Stairway to Heaven
Strana 2
Strana 3
ImageSkladba Stairway to Heaven od anglickej skupiny Led Zeppelin sa stala legendou medzi gitaristami. Vyšla na ich štvrtom albume. Patrí k najhranejším piesňam a k rockovej klasike. Hudbu napísal Jimmy Page, nahrávanie začalo v decembri 1970. Pieseň bola dokončená pridaním textu Roberta Planta. V našom 19 dieľnom seriáli budeme postupne prinášať všetky rify, ktoré Jimmy Page v tejto skladbe hrá. Začneme prvým základným riffom, ktorý uvádzame vo videoukážke. Pod videom sa nachádza tabulatúra pre prvú časť skladby. Vpravo sa nachádza prehľadný obsah celej hodiny, podľa ktorého sa dá ľahko orientovať.






Ukážka v tabulatúre:

E|-------5-|-7-----7-|-8----8-|-2-----2-|-0-------0----|-------|
B|-----5---|---5-----|--5-----|---3-----|---1--1---1---|-------|
G|---5-----|-----5---|----5---|-----2---|-----2------2-|-0-2-2-|
D|-7-------|-6-------|-5------|-4-------|-3------------|-------|
A|---------|---------|--------|---------|--------------|-2-0-0—|
E|---------|---------|--------|---------|--------------|-------|

---------|-------5-|-7-----7-|-8----8-|-2-----2-|-0-------0----|--------|
---------|-----5---|---5-----|--5-----|---3-----|---1--1---1---|--------|
---------|---5-----|-----5---|----5---|-----2---|-----2------2-|-0-2-2--|
---------|-7-------|-6-------|-5------|-4-------|-3------------|--------|
-0-2/8-7-|---------|---------|--------|---------|--------------|-2-0-0--|
---------|---------|---------|--------|---------|--------------|--------|


Ďalšie linky o Led Zeppelin: